ISO-10303-21;
HEADER;
FILE_DESCRIPTION( ( 'STEP AP214' ), '1' );
FILE_NAME( 'p:/temp/worker_3/temp/exporttempdir_2300_341_gaSe0/format_0/AGRU_11056003207_Tee_PPR grey_32 - MOP 20 bar (architecture400).stp', '2022-03-10T06:56:42', ( 'License CC BY-ND 4.0' ), ( 'CADENAS' ), ' ', 'PARTsolutions', ' ' );
FILE_SCHEMA( ( 'AUTOMOTIVE_DESIGN { 1 0 10303 214 1 1 1 1 }' ) );
ENDSEC;
DATA;
#1 = MECHANICAL_DESIGN_GEOMETRIC_PRESENTATION_REPRESENTATION( ' ', ( #10, #11, #12, #13, #14, #15, #16, #17, #18, #19, #20, #21, #22 ), #6 );
#2 = PRODUCT_DEFINITION_CONTEXT( '', #23, 'design' );
#3 = APPLICATION_PROTOCOL_DEFINITION( 'international standard', 'automotive_design', 2001, #23 );
#4 = PRODUCT_CATEGORY_RELATIONSHIP( 'NONE', 'NONE', #24, #25 );
#5 = SHAPE_DEFINITION_REPRESENTATION( #26, #27 );
#6 =  ( GEOMETRIC_REPRESENTATION_CONTEXT( 3 )GLOBAL_UNCERTAINTY_ASSIGNED_CONTEXT( ( #30 ) )GLOBAL_UNIT_ASSIGNED_CONTEXT( ( #32, #33, #34 ) )REPRESENTATION_CONTEXT( 'NONE', 'WORKSPACE' ) );
#10 = STYLED_ITEM( '', ( #36 ), #37 );
#11 = STYLED_ITEM( '', ( #38 ), #39 );
#12 = STYLED_ITEM( '', ( #40 ), #41 );
#13 = STYLED_ITEM( '', ( #42 ), #43 );
#14 = STYLED_ITEM( '', ( #44 ), #45 );
#15 = STYLED_ITEM( '', ( #46 ), #47 );
#16 = STYLED_ITEM( '', ( #48 ), #49 );
#17 = STYLED_ITEM( '', ( #50 ), #51 );
#18 = STYLED_ITEM( '', ( #52 ), #53 );
#19 = STYLED_ITEM( '', ( #54 ), #55 );
#20 = STYLED_ITEM( '', ( #56 ), #57 );
#21 = STYLED_ITEM( '', ( #58 ), #59 );
#22 = STYLED_ITEM( '', ( #60 ), #61 );
#23 = APPLICATION_CONTEXT( 'core data for automotive mechanical design processes' );
#24 = PRODUCT_CATEGORY( 'part', 'NONE' );
#25 = PRODUCT_RELATED_PRODUCT_CATEGORY( 'detail', ' ', ( #62 ) );
#26 = PRODUCT_DEFINITION_SHAPE( 'NONE', 'NONE', #63 );
#27 = ADVANCED_BREP_SHAPE_REPRESENTATION( '_AGRU_11056003207_Tee_PPR grey_32 - MOP 20 bar (architecture400)', ( #64, #65 ), #6 );
#30 = UNCERTAINTY_MEASURE_WITH_UNIT( LENGTH_MEASURE( 0.00100000000000000 ), #32, '', '' );
#32 =  ( CONVERSION_BASED_UNIT( 'MILLIMETRE', #68 )LENGTH_UNIT(  )NAMED_UNIT( #71 ) );
#33 =  ( NAMED_UNIT( #73 )PLANE_ANGLE_UNIT(  )SI_UNIT( $, .RADIAN. ) );
#34 =  ( NAMED_UNIT( #73 )SI_UNIT( $, .STERADIAN. )SOLID_ANGLE_UNIT(  ) );
#36 = PRESENTATION_STYLE_ASSIGNMENT( ( #79 ) );
#37 = ADVANCED_FACE( '', ( #80, #81 ), #82, .T. );
#38 = PRESENTATION_STYLE_ASSIGNMENT( ( #83 ) );
#39 = ADVANCED_FACE( '', ( #84, #85 ), #86, .T. );
#40 = PRESENTATION_STYLE_ASSIGNMENT( ( #87 ) );
#41 = ADVANCED_FACE( '', ( #88, #89 ), #90, .F. );
#42 = PRESENTATION_STYLE_ASSIGNMENT( ( #91 ) );
#43 = ADVANCED_FACE( '', ( #92, #93 ), #94, .T. );
#44 = PRESENTATION_STYLE_ASSIGNMENT( ( #95 ) );
#45 = ADVANCED_FACE( '', ( #96, #97 ), #98, .F. );
#46 = PRESENTATION_STYLE_ASSIGNMENT( ( #99 ) );
#47 = ADVANCED_FACE( '', ( #100, #101 ), #102, .F. );
#48 = PRESENTATION_STYLE_ASSIGNMENT( ( #103 ) );
#49 = ADVANCED_FACE( '', ( #104, #105 ), #106, .F. );
#50 = PRESENTATION_STYLE_ASSIGNMENT( ( #107 ) );
#51 = ADVANCED_FACE( '', ( #108, #109 ), #110, .T. );
#52 = PRESENTATION_STYLE_ASSIGNMENT( ( #111 ) );
#53 = ADVANCED_FACE( '', ( #112, #113, #114 ), #115, .F. );
#54 = PRESENTATION_STYLE_ASSIGNMENT( ( #116 ) );
#55 = ADVANCED_FACE( '', ( #117, #118 ), #119, .T. );
#56 = PRESENTATION_STYLE_ASSIGNMENT( ( #120 ) );
#57 = ADVANCED_FACE( '', ( #121, #122 ), #123, .F. );
#58 = PRESENTATION_STYLE_ASSIGNMENT( ( #124 ) );
#59 = ADVANCED_FACE( '', ( #125, #126, #127 ), #128, .T. );
#60 = PRESENTATION_STYLE_ASSIGNMENT( ( #129 ) );
#61 = ADVANCED_FACE( '', ( #130, #131 ), #132, .T. );
#62 = PRODUCT( '_AGRU_11056003207_Tee_PPR grey_32 - MOP 20 bar (architecture400)', '_AGRU_11056003207_Tee_PPR grey_32 - MOP 20 bar (architecture400)', 'PART-_AGRU_11056003207_Tee_PPR grey_32 - MOP 20 bar (architecture400)-DESC', ( #133 ) );
#63 = PRODUCT_DEFINITION( 'NONE', 'NONE', #134, #2 );
#64 = MANIFOLD_SOLID_BREP( '_AGRU_11056003207_Tee_PPR grey_32 - MOP 20 bar (architecture400)', #135 );
#65 = AXIS2_PLACEMENT_3D( '', #136, #137, #138 );
#68 = LENGTH_MEASURE_WITH_UNIT( LENGTH_MEASURE( 1.00000000000000 ), #139 );
#71 = DIMENSIONAL_EXPONENTS( 1.00000000000000, 0.000000000000000, 0.000000000000000, 0.000000000000000, 0.000000000000000, 0.000000000000000, 0.000000000000000 );
#73 = DIMENSIONAL_EXPONENTS( 0.000000000000000, 0.000000000000000, 0.000000000000000, 0.000000000000000, 0.000000000000000, 0.000000000000000, 0.000000000000000 );
#79 = SURFACE_STYLE_USAGE( .BOTH., #140 );
#80 = FACE_OUTER_BOUND( '', #141, .T. );
#81 = FACE_OUTER_BOUND( '', #142, .T. );
#82 = CYLINDRICAL_SURFACE( '', #143, 21.5000000000000 );
#83 = SURFACE_STYLE_USAGE( .BOTH., #144 );
#84 = FACE_BOUND( '', #145, .T. );
#85 = FACE_OUTER_BOUND( '', #146, .T. );
#86 = PLANE( '', #147 );
#87 = SURFACE_STYLE_USAGE( .BOTH., #148 );
#88 = FACE_OUTER_BOUND( '', #149, .T. );
#89 = FACE_OUTER_BOUND( '', #150, .T. );
#90 = CYLINDRICAL_SURFACE( '', #151, 14.1666666667000 );
#91 = SURFACE_STYLE_USAGE( .BOTH., #152 );
#92 = FACE_BOUND( '', #153, .T. );
#93 = FACE_OUTER_BOUND( '', #154, .T. );
#94 = PLANE( '', #155 );
#95 = SURFACE_STYLE_USAGE( .BOTH., #156 );
#96 = FACE_BOUND( '', #157, .T. );
#97 = FACE_OUTER_BOUND( '', #158, .T. );
#98 = PLANE( '', #159 );
#99 = SURFACE_STYLE_USAGE( .BOTH., #160 );
#100 = FACE_OUTER_BOUND( '', #161, .T. );
#101 = FACE_OUTER_BOUND( '', #162, .T. );
#102 = CYLINDRICAL_SURFACE( '', #163, 16.0000000000000 );
#103 = SURFACE_STYLE_USAGE( .BOTH., #164 );
#104 = FACE_OUTER_BOUND( '', #165, .T. );
#105 = FACE_OUTER_BOUND( '', #166, .T. );
#106 = CYLINDRICAL_SURFACE( '', #167, 16.0000000000000 );
#107 = SURFACE_STYLE_USAGE( .BOTH., #168 );
#108 = FACE_BOUND( '', #169, .T. );
#109 = FACE_OUTER_BOUND( '', #170, .T. );
#110 = PLANE( '', #171 );
#111 = SURFACE_STYLE_USAGE( .BOTH., #172 );
#112 = FACE_OUTER_BOUND( '', #173, .T. );
#113 = FACE_BOUND( '', #174, .T. );
#114 = FACE_OUTER_BOUND( '', #175, .T. );
#115 = CYLINDRICAL_SURFACE( '', #176, 14.1666666667000 );
#116 = SURFACE_STYLE_USAGE( .BOTH., #177 );
#117 = FACE_OUTER_BOUND( '', #178, .T. );
#118 = FACE_BOUND( '', #179, .T. );
#119 = PLANE( '', #180 );
#120 = SURFACE_STYLE_USAGE( .BOTH., #181 );
#121 = FACE_OUTER_BOUND( '', #182, .T. );
#122 = FACE_OUTER_BOUND( '', #183, .T. );
#123 = CYLINDRICAL_SURFACE( '', #184, 16.0000000000000 );
#124 = SURFACE_STYLE_USAGE( .BOTH., #185 );
#125 = FACE_OUTER_BOUND( '', #186, .T. );
#126 = FACE_OUTER_BOUND( '', #187, .T. );
#127 = FACE_BOUND( '', #188, .T. );
#128 = CYLINDRICAL_SURFACE( '', #189, 21.5000000000000 );
#129 = SURFACE_STYLE_USAGE( .BOTH., #190 );
#130 = FACE_BOUND( '', #191, .T. );
#131 = FACE_OUTER_BOUND( '', #192, .T. );
#132 = PLANE( '', #193 );
#133 = PRODUCT_CONTEXT( '', #23, 'mechanical' );
#134 = PRODUCT_DEFINITION_FORMATION_WITH_SPECIFIED_SOURCE( ' ', 'NONE', #62, .NOT_KNOWN. );
#135 = CLOSED_SHELL( '', ( #53, #59, #51, #45, #37, #61, #57, #43, #55, #49, #47, #39, #41 ) );
#136 = CARTESIAN_POINT( '', ( 0.000000000000000, 0.000000000000000, 0.000000000000000 ) );
#137 = DIRECTION( '', ( 0.000000000000000, 0.000000000000000, 1.00000000000000 ) );
#138 = DIRECTION( '', ( 1.00000000000000, 0.000000000000000, 0.000000000000000 ) );
#139 =  ( LENGTH_UNIT(  )NAMED_UNIT( #71 )SI_UNIT( .MILLI., .METRE. ) );
#140 = SURFACE_SIDE_STYLE( '', ( #195 ) );
#141 = EDGE_LOOP( '', ( #196 ) );
#142 = EDGE_LOOP( '', ( #197, #198 ) );
#143 = AXIS2_PLACEMENT_3D( '', #199, #200, #201 );
#144 = SURFACE_SIDE_STYLE( '', ( #202 ) );
#145 = EDGE_LOOP( '', ( #203 ) );
#146 = EDGE_LOOP( '', ( #204 ) );
#147 = AXIS2_PLACEMENT_3D( '', #205, #206, #207 );
#148 = SURFACE_SIDE_STYLE( '', ( #208 ) );
#149 = EDGE_LOOP( '', ( #209, #210 ) );
#150 = EDGE_LOOP( '', ( #211 ) );
#151 = AXIS2_PLACEMENT_3D( '', #212, #213, #214 );
#152 = SURFACE_SIDE_STYLE( '', ( #215 ) );
#153 = EDGE_LOOP( '', ( #216 ) );
#154 = EDGE_LOOP( '', ( #217 ) );
#155 = AXIS2_PLACEMENT_3D( '', #218, #219, #220 );
#156 = SURFACE_SIDE_STYLE( '', ( #221 ) );
#157 = EDGE_LOOP( '', ( #222 ) );
#158 = EDGE_LOOP( '', ( #223 ) );
#159 = AXIS2_PLACEMENT_3D( '', #224, #225, #226 );
#160 = SURFACE_SIDE_STYLE( '', ( #227 ) );
#161 = EDGE_LOOP( '', ( #228 ) );
#162 = EDGE_LOOP( '', ( #229 ) );
#163 = AXIS2_PLACEMENT_3D( '', #230, #231, #232 );
#164 = SURFACE_SIDE_STYLE( '', ( #233 ) );
#165 = EDGE_LOOP( '', ( #234 ) );
#166 = EDGE_LOOP( '', ( #235 ) );
#167 = AXIS2_PLACEMENT_3D( '', #236, #237, #238 );
#168 = SURFACE_SIDE_STYLE( '', ( #239 ) );
#169 = EDGE_LOOP( '', ( #240 ) );
#170 = EDGE_LOOP( '', ( #241 ) );
#171 = AXIS2_PLACEMENT_3D( '', #242, #243, #244 );
#172 = SURFACE_SIDE_STYLE( '', ( #245 ) );
#173 = EDGE_LOOP( '', ( #246 ) );
#174 = EDGE_LOOP( '', ( #247, #248 ) );
#175 = EDGE_LOOP( '', ( #249 ) );
#176 = AXIS2_PLACEMENT_3D( '', #250, #251, #252 );
#177 = SURFACE_SIDE_STYLE( '', ( #253 ) );
#178 = EDGE_LOOP( '', ( #254 ) );
#179 = EDGE_LOOP( '', ( #255 ) );
#180 = AXIS2_PLACEMENT_3D( '', #256, #257, #258 );
#181 = SURFACE_SIDE_STYLE( '', ( #259 ) );
#182 = EDGE_LOOP( '', ( #260 ) );
#183 = EDGE_LOOP( '', ( #261 ) );
#184 = AXIS2_PLACEMENT_3D( '', #262, #263, #264 );
#185 = SURFACE_SIDE_STYLE( '', ( #265 ) );
#186 = EDGE_LOOP( '', ( #266 ) );
#187 = EDGE_LOOP( '', ( #267 ) );
#188 = EDGE_LOOP( '', ( #268, #269 ) );
#189 = AXIS2_PLACEMENT_3D( '', #270, #271, #272 );
#190 = SURFACE_SIDE_STYLE( '', ( #273 ) );
#191 = EDGE_LOOP( '', ( #274 ) );
#192 = EDGE_LOOP( '', ( #275 ) );
#193 = AXIS2_PLACEMENT_3D( '', #276, #277, #278 );
#195 = SURFACE_STYLE_FILL_AREA( #279 );
#196 = ORIENTED_EDGE( '', *, *, #280, .F. );
#197 = ORIENTED_EDGE( '', *, *, #281, .T. );
#198 = ORIENTED_EDGE( '', *, *, #282, .T. );
#199 = CARTESIAN_POINT( '', ( -20.0000000000000, 0.000000000000000, 40.0000000000000 ) );
#200 = DIRECTION( '', ( 0.000000000000000, -0.000000000000000, 1.00000000000000 ) );
#201 = DIRECTION( '', ( -1.00000000000000, 0.000000000000000, 0.000000000000000 ) );
#202 = SURFACE_STYLE_FILL_AREA( #283 );
#203 = ORIENTED_EDGE( '', *, *, #284, .T. );
#204 = ORIENTED_EDGE( '', *, *, #285, .F. );
#205 = CARTESIAN_POINT( '', ( -4.00000000000000, 0.000000000000000, 20.0000000000000 ) );
#206 = DIRECTION( '', ( 0.000000000000000, 0.000000000000000, 1.00000000000000 ) );
#207 = DIRECTION( '', ( 1.00000000000000, 0.000000000000000, -0.000000000000000 ) );
#208 = SURFACE_STYLE_FILL_AREA( #286 );
#209 = ORIENTED_EDGE( '', *, *, #287, .F. );
#210 = ORIENTED_EDGE( '', *, *, #288, .F. );
#211 = ORIENTED_EDGE( '', *, *, #284, .F. );
#212 = CARTESIAN_POINT( '', ( -20.0000000000000, 0.000000000000000, 0.000000000000000 ) );
#213 = DIRECTION( '', ( 0.000000000000000, -0.000000000000000, 1.00000000000000 ) );
#214 = DIRECTION( '', ( -1.00000000000000, 0.000000000000000, 0.000000000000000 ) );
#215 = SURFACE_STYLE_FILL_AREA( #289 );
#216 = ORIENTED_EDGE( '', *, *, #290, .T. );
#217 = ORIENTED_EDGE( '', *, *, #291, .F. );
#218 = CARTESIAN_POINT( '', ( -40.0000000000000, 0.000000000000000, 16.0000000000000 ) );
#219 = DIRECTION( '', ( -1.00000000000000, 0.000000000000000, 0.000000000000000 ) );
#220 = DIRECTION( '', ( 0.000000000000000, 0.000000000000000, 1.00000000000000 ) );
#221 = SURFACE_STYLE_FILL_AREA( #292 );
#222 = ORIENTED_EDGE( '', *, *, #293, .T. );
#223 = ORIENTED_EDGE( '', *, *, #294, .F. );
#224 = CARTESIAN_POINT( '', ( -60.0000000000000, 0.000000000000000, 0.000000000000000 ) );
#225 = DIRECTION( '', ( 1.00000000000000, 0.000000000000000, 0.000000000000000 ) );
#226 = DIRECTION( '', ( 0.000000000000000, 0.000000000000000, -1.00000000000000 ) );
#227 = SURFACE_STYLE_FILL_AREA( #295 );
#228 = ORIENTED_EDGE( '', *, *, #285, .T. );
#229 = ORIENTED_EDGE( '', *, *, #296, .F. );
#230 = CARTESIAN_POINT( '', ( -20.0000000000000, 0.000000000000000, 0.000000000000000 ) );
#231 = DIRECTION( '', ( 0.000000000000000, -0.000000000000000, 1.00000000000000 ) );
#232 = DIRECTION( '', ( -1.00000000000000, 0.000000000000000, 0.000000000000000 ) );
#233 = SURFACE_STYLE_FILL_AREA( #297 );
#234 = ORIENTED_EDGE( '', *, *, #298, .T. );
#235 = ORIENTED_EDGE( '', *, *, #299, .F. );
#236 = CARTESIAN_POINT( '', ( 20.0000000000000, 0.000000000000000, 0.000000000000000 ) );
#237 = DIRECTION( '', ( -1.00000000000000, -0.000000000000000, 0.000000000000000 ) );
#238 = DIRECTION( '', ( -0.000000000000000, 0.000000000000000, -1.00000000000000 ) );
#239 = SURFACE_STYLE_FILL_AREA( #300 );
#240 = ORIENTED_EDGE( '', *, *, #298, .F. );
#241 = ORIENTED_EDGE( '', *, *, #301, .T. );
#242 = CARTESIAN_POINT( '', ( 20.0000000000000, 0.000000000000000, 0.000000000000000 ) );
#243 = DIRECTION( '', ( 1.00000000000000, 0.000000000000000, 0.000000000000000 ) );
#244 = DIRECTION( '', ( 0.000000000000000, 0.000000000000000, -1.00000000000000 ) );
#245 = SURFACE_STYLE_FILL_AREA( #302 );
#246 = ORIENTED_EDGE( '', *, *, #303, .T. );
#247 = ORIENTED_EDGE( '', *, *, #287, .T. );
#248 = ORIENTED_EDGE( '', *, *, #288, .T. );
#249 = ORIENTED_EDGE( '', *, *, #290, .F. );
#250 = CARTESIAN_POINT( '', ( 20.0000000000000, 0.000000000000000, 0.000000000000000 ) );
#251 = DIRECTION( '', ( -1.00000000000000, -0.000000000000000, 0.000000000000000 ) );
#252 = DIRECTION( '', ( -0.000000000000000, 0.000000000000000, -1.00000000000000 ) );
#253 = SURFACE_STYLE_FILL_AREA( #304 );
#254 = ORIENTED_EDGE( '', *, *, #299, .T. );
#255 = ORIENTED_EDGE( '', *, *, #303, .F. );
#256 = CARTESIAN_POINT( '', ( 0.000000000000000, 0.000000000000000, 14.1666666666667 ) );
#257 = DIRECTION( '', ( 1.00000000000000, 0.000000000000000, -0.000000000000000 ) );
#258 = DIRECTION( '', ( -0.000000000000000, 0.000000000000000, -1.00000000000000 ) );
#259 = SURFACE_STYLE_FILL_AREA( #305 );
#260 = ORIENTED_EDGE( '', *, *, #291, .T. );
#261 = ORIENTED_EDGE( '', *, *, #293, .F. );
#262 = CARTESIAN_POINT( '', ( 20.0000000000000, 0.000000000000000, 0.000000000000000 ) );
#263 = DIRECTION( '', ( -1.00000000000000, -0.000000000000000, 0.000000000000000 ) );
#264 = DIRECTION( '', ( -0.000000000000000, 0.000000000000000, -1.00000000000000 ) );
#265 = SURFACE_STYLE_FILL_AREA( #306 );
#266 = ORIENTED_EDGE( '', *, *, #294, .T. );
#267 = ORIENTED_EDGE( '', *, *, #301, .F. );
#268 = ORIENTED_EDGE( '', *, *, #282, .F. );
#269 = ORIENTED_EDGE( '', *, *, #281, .F. );
#270 = CARTESIAN_POINT( '', ( 20.0000000000000, 0.000000000000000, 0.000000000000000 ) );
#271 = DIRECTION( '', ( 1.00000000000000, -0.000000000000000, -0.000000000000000 ) );
#272 = DIRECTION( '', ( 0.000000000000000, 0.000000000000000, 1.00000000000000 ) );
#273 = SURFACE_STYLE_FILL_AREA( #307 );
#274 = ORIENTED_EDGE( '', *, *, #296, .T. );
#275 = ORIENTED_EDGE( '', *, *, #280, .T. );
#276 = CARTESIAN_POINT( '', ( -20.0000000000000, 0.000000000000000, 40.0000000000000 ) );
#277 = DIRECTION( '', ( 0.000000000000000, 0.000000000000000, 1.00000000000000 ) );
#278 = DIRECTION( '', ( 1.00000000000000, 0.000000000000000, -0.000000000000000 ) );
#279 = FILL_AREA_STYLE( '', ( #308 ) );
#280 = EDGE_CURVE( '', #309, #309, #310, .T. );
#281 = EDGE_CURVE( '', #311, #312, #313, .T. );
#282 = EDGE_CURVE( '', #312, #311, #314, .F. );
#283 = FILL_AREA_STYLE( '', ( #315 ) );
#284 = EDGE_CURVE( '', #316, #316, #317, .T. );
#285 = EDGE_CURVE( '', #318, #318, #319, .T. );
#286 = FILL_AREA_STYLE( '', ( #320 ) );
#287 = EDGE_CURVE( '', #321, #322, #323, .F. );
#288 = EDGE_CURVE( '', #322, #321, #324, .T. );
#289 = FILL_AREA_STYLE( '', ( #325 ) );
#290 = EDGE_CURVE( '', #326, #326, #327, .T. );
#291 = EDGE_CURVE( '', #328, #328, #329, .T. );
#292 = FILL_AREA_STYLE( '', ( #330 ) );
#293 = EDGE_CURVE( '', #331, #331, #332, .T. );
#294 = EDGE_CURVE( '', #333, #333, #334, .T. );
#295 = FILL_AREA_STYLE( '', ( #335 ) );
#296 = EDGE_CURVE( '', #336, #336, #337, .T. );
#297 = FILL_AREA_STYLE( '', ( #338 ) );
#298 = EDGE_CURVE( '', #339, #339, #340, .T. );
#299 = EDGE_CURVE( '', #341, #341, #342, .T. );
#300 = FILL_AREA_STYLE( '', ( #343 ) );
#301 = EDGE_CURVE( '', #344, #344, #345, .T. );
#302 = FILL_AREA_STYLE( '', ( #346 ) );
#303 = EDGE_CURVE( '', #347, #347, #348, .T. );
#304 = FILL_AREA_STYLE( '', ( #349 ) );
#305 = FILL_AREA_STYLE( '', ( #350 ) );
#306 = FILL_AREA_STYLE( '', ( #351 ) );
#307 = FILL_AREA_STYLE( '', ( #352 ) );
#308 = FILL_AREA_STYLE_COLOUR( '', #353 );
#309 = VERTEX_POINT( '', #354 );
#310 = CIRCLE( '', #355, 21.5000000000000 );
#311 = VERTEX_POINT( '', #356 );
#312 = VERTEX_POINT( '', #357 );
#313 = ELLIPSE( '', #358, 30.4055915910000, 21.5000000000000 );
#314 = ELLIPSE( '', #359, 30.4055915910000, 21.5000000000000 );
#315 = FILL_AREA_STYLE_COLOUR( '', #360 );
#316 = VERTEX_POINT( '', #361 );
#317 = CIRCLE( '', #362, 14.1666666667000 );
#318 = VERTEX_POINT( '', #363 );
#319 = CIRCLE( '', #364, 16.0000000000000 );
#320 = FILL_AREA_STYLE_COLOUR( '', #365 );
#321 = VERTEX_POINT( '', #366 );
#322 = VERTEX_POINT( '', #367 );
#323 = ELLIPSE( '', #368, 20.0346921336000, 14.1666666667000 );
#324 = ELLIPSE( '', #369, 20.0346921336000, 14.1666666667000 );
#325 = FILL_AREA_STYLE_COLOUR( '', #370 );
#326 = VERTEX_POINT( '', #371 );
#327 = CIRCLE( '', #372, 14.1666666667000 );
#328 = VERTEX_POINT( '', #373 );
#329 = CIRCLE( '', #374, 16.0000000000000 );
#330 = FILL_AREA_STYLE_COLOUR( '', #375 );
#331 = VERTEX_POINT( '', #376 );
#332 = CIRCLE( '', #377, 16.0000000000000 );
#333 = VERTEX_POINT( '', #378 );
#334 = CIRCLE( '', #379, 21.5000000000000 );
#335 = FILL_AREA_STYLE_COLOUR( '', #380 );
#336 = VERTEX_POINT( '', #381 );
#337 = CIRCLE( '', #382, 16.0000000000000 );
#338 = FILL_AREA_STYLE_COLOUR( '', #383 );
#339 = VERTEX_POINT( '', #384 );
#340 = CIRCLE( '', #385, 16.0000000000000 );
#341 = VERTEX_POINT( '', #386 );
#342 = CIRCLE( '', #387, 16.0000000000000 );
#343 = FILL_AREA_STYLE_COLOUR( '', #388 );
#344 = VERTEX_POINT( '', #389 );
#345 = CIRCLE( '', #390, 21.5000000000000 );
#346 = FILL_AREA_STYLE_COLOUR( '', #391 );
#347 = VERTEX_POINT( '', #392 );
#348 = CIRCLE( '', #393, 14.1666666667000 );
#349 = FILL_AREA_STYLE_COLOUR( '', #394 );
#350 = FILL_AREA_STYLE_COLOUR( '', #395 );
#351 = FILL_AREA_STYLE_COLOUR( '', #396 );
#352 = FILL_AREA_STYLE_COLOUR( '', #397 );
#353 = COLOUR_RGB( '', 0.713725507300000, 0.709803938900000, 0.650980413000000 );
#354 = CARTESIAN_POINT( '', ( 1.50000000000000, 0.000000000000000, 40.0000000000000 ) );
#355 = AXIS2_PLACEMENT_3D( '', #398, #399, #400 );
#356 = CARTESIAN_POINT( '', ( -20.0000000000000, -21.5000000000000, 0.000000000000000 ) );
#357 = CARTESIAN_POINT( '', ( -20.0000000000000, 21.5000000000000, 0.000000000000000 ) );
#358 = AXIS2_PLACEMENT_3D( '', #401, #402, #403 );
#359 = AXIS2_PLACEMENT_3D( '', #404, #405, #406 );
#360 = COLOUR_RGB( '', 0.713725507300000, 0.709803938900000, 0.650980413000000 );
#361 = CARTESIAN_POINT( '', ( -34.1666666666667, 0.000000000000000, 20.0000000000000 ) );
#362 = AXIS2_PLACEMENT_3D( '', #407, #408, #409 );
#363 = CARTESIAN_POINT( '', ( -36.0000000000000, 0.000000000000000, 20.0000000000000 ) );
#364 = AXIS2_PLACEMENT_3D( '', #410, #411, #412 );
#365 = COLOUR_RGB( '', 0.713725507300000, 0.709803938900000, 0.650980413000000 );
#366 = CARTESIAN_POINT( '', ( -20.0000000000000, -14.1666666666667, 0.000000000000000 ) );
#367 = CARTESIAN_POINT( '', ( -20.0000000000000, 14.1666666666667, 0.000000000000000 ) );
#368 = AXIS2_PLACEMENT_3D( '', #413, #414, #415 );
#369 = AXIS2_PLACEMENT_3D( '', #416, #417, #418 );
#370 = COLOUR_RGB( '', 0.713725507300000, 0.709803938900000, 0.650980413000000 );
#371 = CARTESIAN_POINT( '', ( -40.0000000000000, 0.000000000000000, -14.1666666666667 ) );
#372 = AXIS2_PLACEMENT_3D( '', #419, #420, #421 );
#373 = CARTESIAN_POINT( '', ( -40.0000000000000, 0.000000000000000, -16.0000000000000 ) );
#374 = AXIS2_PLACEMENT_3D( '', #422, #423, #424 );
#375 = COLOUR_RGB( '', 0.713725507300000, 0.709803938900000, 0.650980413000000 );
#376 = CARTESIAN_POINT( '', ( -60.0000000000000, 0.000000000000000, -16.0000000000000 ) );
#377 = AXIS2_PLACEMENT_3D( '', #425, #426, #427 );
#378 = CARTESIAN_POINT( '', ( -60.0000000000000, 21.5000000000000, 0.000000000000000 ) );
#379 = AXIS2_PLACEMENT_3D( '', #428, #429, #430 );
#380 = COLOUR_RGB( '', 0.713725507300000, 0.709803938900000, 0.650980413000000 );
#381 = CARTESIAN_POINT( '', ( -36.0000000000000, 0.000000000000000, 40.0000000000000 ) );
#382 = AXIS2_PLACEMENT_3D( '', #431, #432, #433 );
#383 = COLOUR_RGB( '', 0.713725507300000, 0.709803938900000, 0.650980413000000 );
#384 = CARTESIAN_POINT( '', ( 20.0000000000000, 0.000000000000000, -16.0000000000000 ) );
#385 = AXIS2_PLACEMENT_3D( '', #434, #435, #436 );
#386 = CARTESIAN_POINT( '', ( 0.000000000000000, 0.000000000000000, -16.0000000000000 ) );
#387 = AXIS2_PLACEMENT_3D( '', #437, #438, #439 );
#388 = COLOUR_RGB( '', 0.713725507300000, 0.709803938900000, 0.650980413000000 );
#389 = CARTESIAN_POINT( '', ( 20.0000000000000, 21.5000000000000, 0.000000000000000 ) );
#390 = AXIS2_PLACEMENT_3D( '', #440, #441, #442 );
#391 = COLOUR_RGB( '', 0.713725507300000, 0.709803938900000, 0.650980413000000 );
#392 = CARTESIAN_POINT( '', ( 0.000000000000000, 0.000000000000000, -14.1666666666667 ) );
#393 = AXIS2_PLACEMENT_3D( '', #443, #444, #445 );
#394 = COLOUR_RGB( '', 0.713725507300000, 0.709803938900000, 0.650980413000000 );
#395 = COLOUR_RGB( '', 0.713725507300000, 0.709803938900000, 0.650980413000000 );
#396 = COLOUR_RGB( '', 0.713725507300000, 0.709803938900000, 0.650980413000000 );
#397 = COLOUR_RGB( '', 0.713725507300000, 0.709803938900000, 0.650980413000000 );
#398 = CARTESIAN_POINT( '', ( -20.0000000000000, 0.000000000000000, 40.0000000000000 ) );
#399 = DIRECTION( '', ( 0.000000000000000, 0.000000000000000, 1.00000000000000 ) );
#400 = DIRECTION( '', ( 1.00000000000000, 0.000000000000000, 0.000000000000000 ) );
#401 = CARTESIAN_POINT( '', ( -20.0000000000000, 0.000000000000000, 0.000000000000000 ) );
#402 = DIRECTION( '', ( -0.707106781186548, 0.000000000000000, 0.707106781186548 ) );
#403 = DIRECTION( '', ( -0.707106781186547, -0.000000000000000, -0.707106781186547 ) );
#404 = CARTESIAN_POINT( '', ( -20.0000000000000, 0.000000000000000, 0.000000000000000 ) );
#405 = DIRECTION( '', ( -0.707106781186548, 0.000000000000000, -0.707106781186548 ) );
#406 = DIRECTION( '', ( -0.707106781186547, 0.000000000000000, 0.707106781186547 ) );
#407 = CARTESIAN_POINT( '', ( -20.0000000000000, 0.000000000000000, 20.0000000000000 ) );
#408 = DIRECTION( '', ( -0.000000000000000, 0.000000000000000, -1.00000000000000 ) );
#409 = DIRECTION( '', ( -1.00000000000000, 0.000000000000000, 0.000000000000000 ) );
#410 = CARTESIAN_POINT( '', ( -20.0000000000000, 0.000000000000000, 20.0000000000000 ) );
#411 = DIRECTION( '', ( -0.000000000000000, 0.000000000000000, -1.00000000000000 ) );
#412 = DIRECTION( '', ( -1.00000000000000, 0.000000000000000, 0.000000000000000 ) );
#413 = CARTESIAN_POINT( '', ( -20.0000000000000, 0.000000000000000, 0.000000000000000 ) );
#414 = DIRECTION( '', ( 0.707106781186548, 0.000000000000000, -0.707106781186548 ) );
#415 = DIRECTION( '', ( 0.707106781186547, 0.000000000000000, 0.707106781186547 ) );
#416 = CARTESIAN_POINT( '', ( -20.0000000000000, 0.000000000000000, 0.000000000000000 ) );
#417 = DIRECTION( '', ( 0.707106781186548, 0.000000000000000, 0.707106781186548 ) );
#418 = DIRECTION( '', ( 0.707106781186547, -0.000000000000000, -0.707106781186547 ) );
#419 = CARTESIAN_POINT( '', ( -40.0000000000000, 0.000000000000000, 0.000000000000000 ) );
#420 = DIRECTION( '', ( 1.00000000000000, 0.000000000000000, -0.000000000000000 ) );
#421 = DIRECTION( '', ( -0.000000000000000, 0.000000000000000, -1.00000000000000 ) );
#422 = CARTESIAN_POINT( '', ( -40.0000000000000, 0.000000000000000, 0.000000000000000 ) );
#423 = DIRECTION( '', ( 1.00000000000000, 0.000000000000000, -0.000000000000000 ) );
#424 = DIRECTION( '', ( -0.000000000000000, 0.000000000000000, -1.00000000000000 ) );
#425 = CARTESIAN_POINT( '', ( -60.0000000000000, 0.000000000000000, 0.000000000000000 ) );
#426 = DIRECTION( '', ( 1.00000000000000, 0.000000000000000, -0.000000000000000 ) );
#427 = DIRECTION( '', ( -0.000000000000000, 0.000000000000000, -1.00000000000000 ) );
#428 = CARTESIAN_POINT( '', ( -60.0000000000000, 0.000000000000000, 0.000000000000000 ) );
#429 = DIRECTION( '', ( 1.00000000000000, 0.000000000000000, 0.000000000000000 ) );
#430 = DIRECTION( '', ( 0.000000000000000, 1.00000000000000, 0.000000000000000 ) );
#431 = CARTESIAN_POINT( '', ( -20.0000000000000, 0.000000000000000, 40.0000000000000 ) );
#432 = DIRECTION( '', ( -0.000000000000000, 0.000000000000000, -1.00000000000000 ) );
#433 = DIRECTION( '', ( -1.00000000000000, 0.000000000000000, 0.000000000000000 ) );
#434 = CARTESIAN_POINT( '', ( 20.0000000000000, 0.000000000000000, 0.000000000000000 ) );
#435 = DIRECTION( '', ( 1.00000000000000, 0.000000000000000, -0.000000000000000 ) );
#436 = DIRECTION( '', ( -0.000000000000000, 0.000000000000000, -1.00000000000000 ) );
#437 = CARTESIAN_POINT( '', ( 0.000000000000000, 0.000000000000000, 0.000000000000000 ) );
#438 = DIRECTION( '', ( 1.00000000000000, 0.000000000000000, -0.000000000000000 ) );
#439 = DIRECTION( '', ( -0.000000000000000, 0.000000000000000, -1.00000000000000 ) );
#440 = CARTESIAN_POINT( '', ( 20.0000000000000, 0.000000000000000, 0.000000000000000 ) );
#441 = DIRECTION( '', ( 1.00000000000000, 0.000000000000000, 0.000000000000000 ) );
#442 = DIRECTION( '', ( 0.000000000000000, 1.00000000000000, 0.000000000000000 ) );
#443 = CARTESIAN_POINT( '', ( 0.000000000000000, 0.000000000000000, 0.000000000000000 ) );
#444 = DIRECTION( '', ( 1.00000000000000, 0.000000000000000, -0.000000000000000 ) );
#445 = DIRECTION( '', ( -0.000000000000000, 0.000000000000000, -1.00000000000000 ) );
ENDSEC;
END-ISO-10303-21;
